ISO-10303-21;
HEADER;
FILE_DESCRIPTION (( 'STEP AP214' ),
    '1' );
FILE_NAME ('am-3713 Brass Tube .4375 x .029 x .875.STEP',
    '2022-05-05T14:48:25',
    ( '' ),
    ( '' ),
    'SwSTEP 2.0',
    'SolidWorks 2021',
    '' );
FILE_SCHEMA (( 'AUTOMOTIVE_DESIGN' ));
ENDSEC;

DATA;
#1 = LINE ( 'NONE', #143, #215 ) ;
#2 =( NAMED_UNIT ( * ) PLANE_ANGLE_UNIT ( ) SI_UNIT ( $, .RADIAN. ) );
#3 = ORIENTED_EDGE ( 'NONE', *, *, #39, .F. ) ;
#4 = DIRECTION ( 'NONE',  ( 0.000000000000000000, 0.000000000000000000, 1.000000000000000000 ) ) ;
#5 = ORIENTED_EDGE ( 'NONE', *, *, #124, .F. ) ;
#6 = AXIS2_PLACEMENT_3D ( 'NONE', #95, #31, #174 ) ;
#7 = AXIS2_PLACEMENT_3D ( 'NONE', #164, #51, #123 ) ;
#8 = PRESENTATION_LAYER_ASSIGNMENT (  '', '', ( #194 ) ) ;
#9 = ORIENTED_EDGE ( 'NONE', *, *, #216, .T. ) ;
#10 =( NAMED_UNIT ( * ) SI_UNIT ( $, .STERADIAN. ) SOLID_ANGLE_UNIT ( ) );
#11 = ORIENTED_EDGE ( 'NONE', *, *, #173, .F. ) ;
#12 = CARTESIAN_POINT ( 'NONE',  ( 2.678914873134835064E-17, 0.4375000000000000000, 0.2187500000000000000 ) ) ;
#13 = CYLINDRICAL_SURFACE ( 'NONE', #169, 0.2187500000000000000 ) ;
#14 = LENGTH_MEASURE_WITH_UNIT ( LENGTH_MEASURE( 0.02539999999999999897 ), #167 );
#15 = DIRECTION ( 'NONE',  ( 0.000000000000000000, 1.000000000000000000, 0.000000000000000000 ) ) ;
#16 = EDGE_CURVE ( 'NONE', #183, #108, #176, .T. ) ;
#17 = AXIS2_PLACEMENT_3D ( 'NONE', #60, #27, #154 ) ;
#18 = SURFACE_STYLE_FILL_AREA ( #195 ) ;
#19 = CARTESIAN_POINT ( 'NONE',  ( 2.678914873134835064E-17, -0.4375000000000000000, 0.2187500000000000000 ) ) ;
#20 = DIRECTION ( 'NONE',  ( -0.000000000000000000, -1.000000000000000000, -0.000000000000000000 ) ) ;
#21 = VERTEX_POINT ( 'NONE', #155 ) ;
#22 = PRODUCT_DEFINITION ( 'UNKNOWN', '', #161, #218 ) ;
#23 = EDGE_LOOP ( 'NONE', ( #217, #141, #25, #126 ) ) ;
#24 = UNCERTAINTY_MEASURE_WITH_UNIT (LENGTH_MEASURE( 1.000000000000000082E-05 ), #142, 'distance_accuracy_value', 'NONE');
#25 = ORIENTED_EDGE ( 'NONE', *, *, #16, .F. ) ;
#26 = ADVANCED_FACE ( 'NONE', ( #70 ), #93, .F. ) ;
#27 = DIRECTION ( 'NONE',  ( 0.000000000000000000, 1.000000000000000000, 0.000000000000000000 ) ) ;
#28 = PRODUCT_DEFINITION_SHAPE ( 'NONE', 'NONE',  #22 ) ;
#29 = DIRECTION ( 'NONE',  ( 0.000000000000000000, 0.000000000000000000, 1.000000000000000000 ) ) ;
#30 = SURFACE_STYLE_USAGE ( .BOTH. , #114 ) ;
#31 = DIRECTION ( 'NONE',  ( 0.000000000000000000, 1.000000000000000000, 0.000000000000000000 ) ) ;
#32 = DIRECTION ( 'NONE',  ( 0.000000000000000000, 1.000000000000000000, 0.000000000000000000 ) ) ;
#33 = CARTESIAN_POINT ( 'NONE',  ( 0.000000000000000000, -0.4375000000000000000, 0.000000000000000000 ) ) ;
#34 = PLANE ( 'NONE',  #85 ) ;
#35 = APPLICATION_PROTOCOL_DEFINITION ( 'draft international standard', 'automotive_design', 1998, #200 ) ;
#36 = ADVANCED_FACE ( 'NONE', ( #87, #57 ), #190, .F. ) ;
#37 = DIRECTION ( 'NONE',  ( 0.000000000000000000, 0.000000000000000000, -1.000000000000000000 ) ) ;
#38 = MECHANICAL_DESIGN_GEOMETRIC_PRESENTATION_REPRESENTATION (  '', ( #210 ), #139 ) ;
#39 = EDGE_CURVE ( 'NONE', #49, #165, #168, .T. ) ;
#40 = VECTOR ( 'NONE', #211, 39.37007874015748143 ) ;
#41 = DIRECTION ( 'NONE',  ( 0.000000000000000000, 1.000000000000000000, 0.000000000000000000 ) ) ;
#42 = ORIENTED_EDGE ( 'NONE', *, *, #62, .T. ) ;
#43 = SURFACE_STYLE_FILL_AREA ( #203 ) ;
#44 = DIRECTION ( 'NONE',  ( 0.000000000000000000, 0.000000000000000000, -1.000000000000000000 ) ) ;
#45 = CARTESIAN_POINT ( 'NONE',  ( 0.000000000000000000, 0.4375000000000000000, -0.2187500000000000000 ) ) ;
#46 = DIRECTION ( 'NONE',  ( 0.000000000000000000, 0.000000000000000000, 1.000000000000000000 ) ) ;
#47 = CIRCLE ( 'NONE', #17, 0.2187500000000000000 ) ;
#48 =( LENGTH_UNIT ( ) NAMED_UNIT ( * ) SI_UNIT ( $, .METRE. ) );
#49 = VERTEX_POINT ( 'NONE', #12 ) ;
#50 = CARTESIAN_POINT ( 'NONE',  ( 0.000000000000000000, 0.4375000000000000000, 0.000000000000000000 ) ) ;
#51 = DIRECTION ( 'NONE',  ( -0.000000000000000000, -1.000000000000000000, -0.000000000000000000 ) ) ;
#52 = AXIS2_PLACEMENT_3D ( 'NONE', #33, #15, #130 ) ;
#53 = EDGE_CURVE ( 'NONE', #165, #21, #138, .T. ) ;
#54 = VECTOR ( 'NONE', #186, 39.37007874015748143 ) ;
#55 = UNCERTAINTY_MEASURE_WITH_UNIT (LENGTH_MEASURE( 1.000000000000000082E-05 ), #189, 'distance_accuracy_value', 'NONE');
#56 = FACE_OUTER_BOUND ( 'NONE', #71, .T. ) ;
#57 = FACE_BOUND ( 'NONE', #128, .T. ) ;
#58 = FILL_AREA_STYLE_COLOUR ( '', #122 ) ;
#59 = CARTESIAN_POINT ( 'NONE',  ( 2.678914873134835064E-17, 0.4375000000000000000, 0.2187500000000000000 ) ) ;
#60 = CARTESIAN_POINT ( 'NONE',  ( 0.000000000000000000, 0.4375000000000000000, 0.000000000000000000 ) ) ;
#61 = CARTESIAN_POINT ( 'NONE',  ( 0.000000000000000000, 0.4375000000000000000, 0.000000000000000000 ) ) ;
#62 = EDGE_CURVE ( 'NONE', #108, #183, #78, .T. ) ;
#63 = CIRCLE ( 'NONE', #84, 0.2187500000000000000 ) ;
#64 = CIRCLE ( 'NONE', #206, 0.1894999999999999740 ) ;
#65 = CARTESIAN_POINT ( 'NONE',  ( 0.000000000000000000, 0.4375000000000000000, -0.1894999999999999740 ) ) ;
#66 = EDGE_LOOP ( 'NONE', ( #109, #149 ) ) ;
#67 = ORIENTED_EDGE ( 'NONE', *, *, #90, .T. ) ;
#68 = VERTEX_POINT ( 'NONE', #65 ) ;
#69 = VERTEX_POINT ( 'NONE', #221 ) ;
#70 = FACE_OUTER_BOUND ( 'NONE', #23, .T. ) ;
#71 = EDGE_LOOP ( 'NONE', ( #166, #180, #134, #107 ) ) ;
#72 = CARTESIAN_POINT ( 'NONE',  ( 0.000000000000000000, -0.4375000000000000000, 0.000000000000000000 ) ) ;
#73 = APPLICATION_PROTOCOL_DEFINITION ( 'draft international standard', 'automotive_design', 1998, #187 ) ;
#74 = ORIENTED_EDGE ( 'NONE', *, *, #90, .F. ) ;
#75 = DIRECTION ( 'NONE',  ( 0.000000000000000000, 0.000000000000000000, 1.000000000000000000 ) ) ;
#76 =( NAMED_UNIT ( * ) SI_UNIT ( $, .STERADIAN. ) SOLID_ANGLE_UNIT ( ) );
#77 =( LENGTH_UNIT ( ) NAMED_UNIT ( * ) SI_UNIT ( $, .METRE. ) );
#78 = CIRCLE ( 'NONE', #81, 0.1894999999999999740 ) ;
#79 = AXIS2_PLACEMENT_3D ( 'NONE', #116, #32, #75 ) ;
#80 = PRODUCT_RELATED_PRODUCT_CATEGORY ( 'part', '', ( #146 ) ) ;
#81 = AXIS2_PLACEMENT_3D ( 'NONE', #72, #222, #158 ) ;
#82 = ORIENTED_EDGE ( 'NONE', *, *, #104, .F. ) ;
#83 = ORIENTED_EDGE ( 'NONE', *, *, #53, .T. ) ;
#84 = AXIS2_PLACEMENT_3D ( 'NONE', #61, #205, #46 ) ;
#85 = AXIS2_PLACEMENT_3D ( 'NONE', #133, #129, #96 ) ;
#86 = DIRECTION ( 'NONE',  ( 0.000000000000000000, 0.000000000000000000, 1.000000000000000000 ) ) ;
#87 = FACE_OUTER_BOUND ( 'NONE', #66, .T. ) ;
#88 = AXIS2_PLACEMENT_3D ( 'NONE', #220, #188, #44 ) ;
#89 = PRESENTATION_STYLE_ASSIGNMENT (( #30 ) ) ;
#90 = EDGE_CURVE ( 'NONE', #209, #49, #63, .T. ) ;
#91 = DIRECTION ( 'NONE',  ( 0.000000000000000000, 1.000000000000000000, 0.000000000000000000 ) ) ;
#92 =( NAMED_UNIT ( * ) PLANE_ANGLE_UNIT ( ) SI_UNIT ( $, .RADIAN. ) );
#93 = CYLINDRICAL_SURFACE ( 'NONE', #88, 0.1894999999999999740 ) ;
#94 =( NAMED_UNIT ( * ) PLANE_ANGLE_UNIT ( ) SI_UNIT ( $, .RADIAN. ) );
#95 = CARTESIAN_POINT ( 'NONE',  ( 0.000000000000000000, -0.4375000000000000000, 0.000000000000000000 ) ) ;
#96 = DIRECTION ( 'NONE',  ( 0.000000000000000000, -0.000000000000000000, 1.000000000000000000 ) ) ;
#97 = DIRECTION ( 'NONE',  ( -0.000000000000000000, -1.000000000000000000, -0.000000000000000000 ) ) ;
#98 = AXIS2_PLACEMENT_3D ( 'NONE', #106, #4, #125 ) ;
#99 =( NAMED_UNIT ( * ) SI_UNIT ( $, .STERADIAN. ) SOLID_ANGLE_UNIT ( ) );
#100 =( GEOMETRIC_REPRESENTATION_CONTEXT ( 3 ) GLOBAL_UNCERTAINTY_ASSIGNED_CONTEXT ( ( #150 ) ) GLOBAL_UNIT_ASSIGNED_CONTEXT ( ( #136, #94, #76 ) ) REPRESENTATION_CONTEXT ( 'NONE', 'WORKASPACE' ) );
#101 = LINE ( 'NONE', #175, #40 ) ;
#102 = DIMENSIONAL_EXPONENTS ( 1.000000000000000000, 0.000000000000000000, 0.000000000000000000, 0.000000000000000000, 0.000000000000000000, 0.000000000000000000, 0.000000000000000000 ) ;
#103 = LINE ( 'NONE', #177, #110 ) ;
#104 = EDGE_CURVE ( 'NONE', #68, #69, #181, .T. ) ;
#105 = CIRCLE ( 'NONE', #197, 0.2187500000000000000 ) ;
#106 = CARTESIAN_POINT ( 'NONE',  ( 0.000000000000000000, 0.000000000000000000, 0.000000000000000000 ) ) ;
#107 = ORIENTED_EDGE ( 'NONE', *, *, #62, .F. ) ;
#108 = VERTEX_POINT ( 'NONE', #172 ) ;
#109 = ORIENTED_EDGE ( 'NONE', *, *, #216, .F. ) ;
#110 = VECTOR ( 'NONE', #20, 39.37007874015748143 ) ;
#111 = DIRECTION ( 'NONE',  ( 0.000000000000000000, 1.000000000000000000, 0.000000000000000000 ) ) ;
#112 = ORIENTED_EDGE ( 'NONE', *, *, #39, .T. ) ;
#113 = ADVANCED_FACE ( 'NONE', ( #160 ), #13, .T. ) ;
#114 = SURFACE_SIDE_STYLE ('',( #43 ) ) ;
#115 = CARTESIAN_POINT ( 'NONE',  ( 0.000000000000000000, -0.4375000000000000000, 0.000000000000000000 ) ) ;
#116 = CARTESIAN_POINT ( 'NONE',  ( 0.000000000000000000, 0.4375000000000000000, 0.000000000000000000 ) ) ;
#117 = COLOUR_RGB ( '',0.6470588235294117974, 0.5176470588235293491, 0.000000000000000000 ) ;
#118 = LENGTH_MEASURE_WITH_UNIT ( LENGTH_MEASURE( 0.02539999999999999897 ), #48 );
#119 = DIRECTION ( 'NONE',  ( -0.000000000000000000, -1.000000000000000000, -0.000000000000000000 ) ) ;
#120 = DIMENSIONAL_EXPONENTS ( 1.000000000000000000, 0.000000000000000000, 0.000000000000000000, 0.000000000000000000, 0.000000000000000000, 0.000000000000000000, 0.000000000000000000 ) ;
#121 = MANIFOLD_SOLID_BREP ( 'Boss-Extrude1', #192 ) ;
#122 = COLOUR_RGB ( '',0.6470588235294117974, 0.5176470588235293491, 0.000000000000000000 ) ;
#123 = DIRECTION ( 'NONE',  ( 0.000000000000000000, 0.000000000000000000, -1.000000000000000000 ) ) ;
#124 = EDGE_CURVE ( 'NONE', #209, #21, #1, .T. ) ;
#125 = DIRECTION ( 'NONE',  ( 1.000000000000000000, 0.000000000000000000, 0.000000000000000000 ) ) ;
#126 = ORIENTED_EDGE ( 'NONE', *, *, #162, .F. ) ;
#127 = ADVANCED_BREP_SHAPE_REPRESENTATION ( 'am-3713 Brass Tube .4375 x .029 x .875', ( #121, #98 ), #178 ) ;
#128 = EDGE_LOOP ( 'NONE', ( #152, #42 ) ) ;
#129 = DIRECTION ( 'NONE',  ( 0.000000000000000000, 1.000000000000000000, 0.000000000000000000 ) ) ;
#130 = DIRECTION ( 'NONE',  ( 0.000000000000000000, -0.000000000000000000, 1.000000000000000000 ) ) ;
#131 = ADVANCED_FACE ( 'NONE', ( #147 ), #214, .T. ) ;
#132 = EDGE_LOOP ( 'NONE', ( #67, #171 ) ) ;
#133 = CARTESIAN_POINT ( 'NONE',  ( 0.000000000000000000, 0.4375000000000000000, 0.000000000000000000 ) ) ;
#134 = ORIENTED_EDGE ( 'NONE', *, *, #162, .T. ) ;
#135 = AXIS2_PLACEMENT_3D ( 'NONE', #115, #91, #29 ) ;
#136 =( CONVERSION_BASED_UNIT ( 'INCH', #118 ) LENGTH_UNIT ( ) NAMED_UNIT ( #120 ) );
#137 = ORIENTED_EDGE ( 'NONE', *, *, #124, .T. ) ;
#138 = CIRCLE ( 'NONE', #6, 0.2187500000000000000 ) ;
#139 =( GEOMETRIC_REPRESENTATION_CONTEXT ( 3 ) GLOBAL_UNCERTAINTY_ASSIGNED_CONTEXT ( ( #24 ) ) GLOBAL_UNIT_ASSIGNED_CONTEXT ( ( #142, #2, #99 ) ) REPRESENTATION_CONTEXT ( 'NONE', 'WORKASPACE' ) );
#140 = DIRECTION ( 'NONE',  ( 0.000000000000000000, 0.000000000000000000, 1.000000000000000000 ) ) ;
#141 = ORIENTED_EDGE ( 'NONE', *, *, #151, .T. ) ;
#142 =( CONVERSION_BASED_UNIT ( 'INCH', #196 ) LENGTH_UNIT ( ) NAMED_UNIT ( #163 ) );
#143 = CARTESIAN_POINT ( 'NONE',  ( 0.000000000000000000, 0.4375000000000000000, -0.2187500000000000000 ) ) ;
#144 = SURFACE_STYLE_USAGE ( .BOTH. , #145 ) ;
#145 = SURFACE_SIDE_STYLE ('',( #18 ) ) ;
#146 = PRODUCT ( 'am-3713 Brass Tube .4375 x .029 x .875', 'am-3713 Brass Tube .4375 x .029 x .875', '', ( #170 ) ) ;
#147 = FACE_OUTER_BOUND ( 'NONE', #202, .T. ) ;
#148 = AXIS2_PLACEMENT_3D ( 'NONE', #50, #184, #185 ) ;
#149 = ORIENTED_EDGE ( 'NONE', *, *, #53, .F. ) ;
#150 = UNCERTAINTY_MEASURE_WITH_UNIT (LENGTH_MEASURE( 1.000000000000000082E-05 ), #136, 'distance_accuracy_value', 'NONE');
#151 = EDGE_CURVE ( 'NONE', #69, #108, #101, .T. ) ;
#152 = ORIENTED_EDGE ( 'NONE', *, *, #16, .T. ) ;
#153 = EDGE_LOOP ( 'NONE', ( #82, #11 ) ) ;
#154 = DIRECTION ( 'NONE',  ( 0.000000000000000000, 0.000000000000000000, 1.000000000000000000 ) ) ;
#155 = CARTESIAN_POINT ( 'NONE',  ( 0.000000000000000000, -0.4375000000000000000, -0.2187500000000000000 ) ) ;
#156 = CYLINDRICAL_SURFACE ( 'NONE', #148, 0.1894999999999999740 ) ;
#157 = EDGE_LOOP ( 'NONE', ( #207, #112, #83, #5 ) ) ;
#158 = DIRECTION ( 'NONE',  ( 0.000000000000000000, 0.000000000000000000, 1.000000000000000000 ) ) ;
#159 = CARTESIAN_POINT ( 'NONE',  ( 0.000000000000000000, 0.4375000000000000000, 0.000000000000000000 ) ) ;
#160 = FACE_OUTER_BOUND ( 'NONE', #157, .T. ) ;
#161 = PRODUCT_DEFINITION_FORMATION_WITH_SPECIFIED_SOURCE ( 'ANY', '', #146, .NOT_KNOWN. ) ;
#162 = EDGE_CURVE ( 'NONE', #68, #183, #103, .T. ) ;
#163 = DIMENSIONAL_EXPONENTS ( 1.000000000000000000, 0.000000000000000000, 0.000000000000000000, 0.000000000000000000, 0.000000000000000000, 0.000000000000000000, 0.000000000000000000 ) ;
#164 = CARTESIAN_POINT ( 'NONE',  ( 0.000000000000000000, 0.4375000000000000000, 0.000000000000000000 ) ) ;
#165 = VERTEX_POINT ( 'NONE', #19 ) ;
#166 = ORIENTED_EDGE ( 'NONE', *, *, #151, .F. ) ;
#167 =( LENGTH_UNIT ( ) NAMED_UNIT ( * ) SI_UNIT ( $, .METRE. ) );
#168 = LINE ( 'NONE', #59, #54 ) ;
#169 = AXIS2_PLACEMENT_3D ( 'NONE', #159, #119, #37 ) ;
#170 = PRODUCT_CONTEXT ( 'NONE', #187, 'mechanical' ) ;
#171 = ORIENTED_EDGE ( 'NONE', *, *, #213, .T. ) ;
#172 = CARTESIAN_POINT ( 'NONE',  ( 2.320705684384234119E-17, -0.4375000000000000000, 0.1894999999999999740 ) ) ;
#173 = EDGE_CURVE ( 'NONE', #69, #68, #64, .T. ) ;
#174 = DIRECTION ( 'NONE',  ( 0.000000000000000000, 0.000000000000000000, 1.000000000000000000 ) ) ;
#175 = CARTESIAN_POINT ( 'NONE',  ( 2.320705684384234119E-17, 0.4375000000000000000, 0.1894999999999999740 ) ) ;
#176 = CIRCLE ( 'NONE', #135, 0.1894999999999999740 ) ;
#177 = CARTESIAN_POINT ( 'NONE',  ( 0.000000000000000000, 0.4375000000000000000, -0.1894999999999999740 ) ) ;
#178 =( GEOMETRIC_REPRESENTATION_CONTEXT ( 3 ) GLOBAL_UNCERTAINTY_ASSIGNED_CONTEXT ( ( #55 ) ) GLOBAL_UNIT_ASSIGNED_CONTEXT ( ( #189, #92, #10 ) ) REPRESENTATION_CONTEXT ( 'NONE', 'WORKASPACE' ) );
#179 = FILL_AREA_STYLE_COLOUR ( '', #117 ) ;
#180 = ORIENTED_EDGE ( 'NONE', *, *, #173, .T. ) ;
#181 = CIRCLE ( 'NONE', #79, 0.1894999999999999740 ) ;
#182 = PRESENTATION_LAYER_ASSIGNMENT (  '', '', ( #210 ) ) ;
#183 = VERTEX_POINT ( 'NONE', #219 ) ;
#184 = DIRECTION ( 'NONE',  ( -0.000000000000000000, -1.000000000000000000, -0.000000000000000000 ) ) ;
#185 = DIRECTION ( 'NONE',  ( 0.000000000000000000, 0.000000000000000000, -1.000000000000000000 ) ) ;
#186 = DIRECTION ( 'NONE',  ( -0.000000000000000000, -1.000000000000000000, -0.000000000000000000 ) ) ;
#187 = APPLICATION_CONTEXT ( 'automotive_design' ) ;
#188 = DIRECTION ( 'NONE',  ( -0.000000000000000000, -1.000000000000000000, -0.000000000000000000 ) ) ;
#189 =( CONVERSION_BASED_UNIT ( 'INCH', #14 ) LENGTH_UNIT ( ) NAMED_UNIT ( #102 ) );
#190 = PLANE ( 'NONE',  #52 ) ;
#191 = CARTESIAN_POINT ( 'NONE',  ( 0.000000000000000000, 0.4375000000000000000, 0.000000000000000000 ) ) ;
#192 = CLOSED_SHELL ( 'NONE', ( #26, #113, #199, #36, #131, #198 ) ) ;
#193 = PRESENTATION_STYLE_ASSIGNMENT (( #144 ) ) ;
#194 = STYLED_ITEM ( 'NONE', ( #89 ), #127 ) ;
#195 = FILL_AREA_STYLE ('',( #179 ) ) ;
#196 = LENGTH_MEASURE_WITH_UNIT ( LENGTH_MEASURE( 0.02539999999999999897 ), #77 );
#197 = AXIS2_PLACEMENT_3D ( 'NONE', #208, #41, #86 ) ;
#198 = ADVANCED_FACE ( 'NONE', ( #56 ), #156, .F. ) ;
#199 = ADVANCED_FACE ( 'NONE', ( #204, #201 ), #34, .T. ) ;
#200 = APPLICATION_CONTEXT ( 'automotive_design' ) ;
#201 = FACE_BOUND ( 'NONE', #153, .T. ) ;
#202 = EDGE_LOOP ( 'NONE', ( #3, #74, #137, #9 ) ) ;
#203 = FILL_AREA_STYLE ('',( #58 ) ) ;
#204 = FACE_OUTER_BOUND ( 'NONE', #132, .T. ) ;
#205 = DIRECTION ( 'NONE',  ( 0.000000000000000000, 1.000000000000000000, 0.000000000000000000 ) ) ;
#206 = AXIS2_PLACEMENT_3D ( 'NONE', #191, #111, #140 ) ;
#207 = ORIENTED_EDGE ( 'NONE', *, *, #213, .F. ) ;
#208 = CARTESIAN_POINT ( 'NONE',  ( 0.000000000000000000, -0.4375000000000000000, 0.000000000000000000 ) ) ;
#209 = VERTEX_POINT ( 'NONE', #45 ) ;
#210 = STYLED_ITEM ( 'NONE', ( #193 ), #121 ) ;
#211 = DIRECTION ( 'NONE',  ( -0.000000000000000000, -1.000000000000000000, -0.000000000000000000 ) ) ;
#212 = SHAPE_DEFINITION_REPRESENTATION ( #28, #127 ) ;
#213 = EDGE_CURVE ( 'NONE', #49, #209, #47, .T. ) ;
#214 = CYLINDRICAL_SURFACE ( 'NONE', #7, 0.2187500000000000000 ) ;
#215 = VECTOR ( 'NONE', #97, 39.37007874015748143 ) ;
#216 = EDGE_CURVE ( 'NONE', #21, #165, #105, .T. ) ;
#217 = ORIENTED_EDGE ( 'NONE', *, *, #104, .T. ) ;
#218 = PRODUCT_DEFINITION_CONTEXT ( 'detailed design', #200, 'design' ) ;
#219 = CARTESIAN_POINT ( 'NONE',  ( 0.000000000000000000, -0.4375000000000000000, -0.1894999999999999740 ) ) ;
#220 = CARTESIAN_POINT ( 'NONE',  ( 0.000000000000000000, 0.4375000000000000000, 0.000000000000000000 ) ) ;
#221 = CARTESIAN_POINT ( 'NONE',  ( 2.320705684384234119E-17, 0.4375000000000000000, 0.1894999999999999740 ) ) ;
#222 = DIRECTION ( 'NONE',  ( 0.000000000000000000, 1.000000000000000000, 0.000000000000000000 ) ) ;
#223 = MECHANICAL_DESIGN_GEOMETRIC_PRESENTATION_REPRESENTATION (  '', ( #194 ), #100 ) ;
ENDSEC;
END-ISO-10303-21;
